  0
SECTION
  2
HEADER
  9
$ACADVER
  1
AC1009
  9
$EXTMIN
 10
0
 20
0
  9
$EXTMAX
 10
25
 20
25
  0
ENDSEC
  0
SECTION
  2
TABLES
  0
TABLE
  2
LAYER
 70
 1
  0
LAYER
  2
Mfg
 70
64
 62
7
  6
CONTINUOUS
  0
ENDTAB
  0
ENDSEC
  0
SECTION
  2
BLOCKS
  0
ENDSEC
  0
SECTION
  2
ENTITIES
  0
ARC
  8
Mfg
  6
CONTINUOUS
 62
170
 10
24.999998093
 20
23.000001907
 40
1.999998093
 50
89.999945358
 51
180.000054642
  0
LINE
  8
Mfg
  6
CONTINUOUS
 62
170
 10
23
 20
23
 11
23
 21
20.299
  0
ARC
  8
Mfg
  6
CONTINUOUS
 62
170
 10
23.499924914
 20
20.299126447
 40
0.499924930
 50
-179.985508058
 51
-149.314218957
  0
ARC
  8
Mfg
  6
CONTINUOUS
 62
170
 10
17.311000431
 20
16.647234336
 40
6.686111951
 50
0.332199253
 51
30.532898968
  0
ARC
  8
Mfg
  6
CONTINUOUS
 62
170
 10
16.953332845
 20
16.428012906
 40
7.048390194
 50
-26.937164588
 51
2.097624252
  0
ARC
  8
Mfg
  6
CONTINUOUS
 62
170
 10
20.895640423
 20
14.279681086
 40
2.563849302
 50
-81.965228811
 51
-24.045743804
  0
ARC
  8
Mfg
  6
CONTINUOUS
 62
170
 10
21.381927260
 20
14.103269065
 40
2.365730441
 50
-154.934025681
 51
-93.099790581
  0
ARC
  8
Mfg
  6
CONTINUOUS
 62
170
 10
25.186976954
 20
16.392402334
 40
6.797923151
 50
-183.099780969
 51
-151.041392859
  0
LINE
  8
Mfg
  6
CONTINUOUS
 62
170
 10
18.399
 20
16.76
 11
18.399
 21
19.4
  0
LINE
  8
Mfg
  6
CONTINUOUS
 62
170
 10
18.399
 20
19.4
 11
22.2
 21
19.745
  0
LINE
  8
Mfg
  6
CONTINUOUS
 62
170
 10
22.2
 20
19.745
 11
22.2
 21
19.755
  0
LINE
  8
Mfg
  6
CONTINUOUS
 62
170
 10
22.2
 20
19.755
 11
18.399
 21
19.41
  0
ARC
  8
Mfg
  6
CONTINUOUS
 62
170
 10
17.899070772
 20
19.399970176
 40
0.500029829
 50
1.149341736
 51
90.008109396
  0
LINE
  8
Mfg
  6
CONTINUOUS
 62
170
 10
17.899
 20
19.9
 11
10.5
 21
19.9
  0
ARC
  8
Mfg
  6
CONTINUOUS
 62
170
 10
10.499499045
 20
14.499500955
 40
5.400499068
 50
89.994685198
 51
179.994705455
  0
LINE
  8
Mfg
  6
CONTINUOUS
 62
170
 10
5.099
 20
14.5
 11
5.099
 21
7.1
  0
ARC
  8
Mfg
  6
CONTINUOUS
 62
170
 10
5.599035341
 20
7.099934634
 40
0.500035346
 50
179.992510185
 51
268.850038684
  0
LINE
  8
Mfg
  6
CONTINUOUS
 62
170
 10
5.589
 20
6.6
 11
5.244
 21
2.8
  0
LINE
  8
Mfg
  6
CONTINUOUS
 62
170
 10
5.244
 20
2.8
 11
5.254
 21
2.8
  0
LINE
  8
Mfg
  6
CONTINUOUS
 62
170
 10
5.254
 20
2.8
 11
5.599
 21
6.6
  0
LINE
  8
Mfg
  6
CONTINUOUS
 62
170
 10
5.599
 20
6.6
 11
8.24
 21
6.6
  0
ARC
  8
Mfg
  6
CONTINUOUS
 62
170
 10
8.607091406
 20
-0.186263853
 40
6.796185193
 50
61.038042232
 51
93.096300127
  0
ARC
  8
Mfg
  6
CONTINUOUS
 62
170
 10
10.896350870
 20
3.616318875
 40
2.366150829
 50
3.117520869
 51
64.955357270
  0
ARC
  8
Mfg
  6
CONTINUOUS
 62
170
 10
10.721285897
 20
4.103811740
 40
2.562955078
 50
-65.969007238
 51
-8.047801759
  0
ARC
  8
Mfg
  6
CONTINUOUS
 62
170
 10
8.569557591
 20
8.048091587
 40
7.050760842
 50
-92.085294510
 51
-63.050478527
  0
ARC
  8
Mfg
  6
CONTINUOUS
 62
170
 10
8.354143870
 20
7.686737578
 40
6.684864195
 50
-120.552923045
 51
-90.352645159
  0
ARC
  8
Mfg
  6
CONTINUOUS
 62
170
 10
4.700871281
 20
1.500066808
 40
0.499933208
 50
59.314479124
 51
89.985247891
  0
LINE
  8
Mfg
  6
CONTINUOUS
 62
170
 10
4.701
 20
2
 11
2
 21
2
  0
ARC
  8
Mfg
  6
CONTINUOUS
 62
170
 10
2.000000000
 20
0.000000000
 40
2.000000000
 50
90.000000000
 51
180.000000000
  0
ENDSEC
  0
EOF
